ISO-10303-21;
HEADER;
FILE_DESCRIPTION (( 'STEP AP203' ),
    '1' );
FILE_NAME ('Q-QZWP-R4-12.7-1064-M.STEP',
    '2020-12-23T01:23:05',
    ( '' ),
    ( '' ),
    'SwSTEP 2.0',
    'SolidWorks 2020',
    '' );
FILE_SCHEMA (( 'CONFIG_CONTROL_DESIGN' ));
ENDSEC;

DATA;
#1 = CYLINDRICAL_SURFACE ( 'NONE', #63, 6.349999999999999645 ) ;
#2 = DATE_TIME_ROLE ( 'creation_date' ) ;
#3 = CARTESIAN_POINT ( 'NONE',  ( 1.500000000000000888, 0.000000000000000000, 6.349999999999999645 ) ) ;
#4 = CIRCLE ( 'NONE', #315, 12.69999999999999929 ) ;
#5 = DIRECTION ( 'NONE',  ( 0.000000000000000000, 0.000000000000000000, 1.000000000000000000 ) ) ;
#6 = MANIFOLD_SOLID_BREP ( 'Ðý×', #29 ) ;
#7 = CC_DESIGN_PERSON_AND_ORGANIZATION_ASSIGNMENT ( #47, #157, ( #208 ) ) ;
#8 = CIRCLE ( 'NONE', #286, 6.349999999999999645 ) ;
#9 = PRODUCT_DEFINITION_SHAPE ( 'NONE', 'NONE',  #194 ) ;
#10 = CARTESIAN_POINT ( 'NONE',  ( -1.500000000000000444, 0.000000000000000000, 0.000000000000000000 ) ) ;
#11 = EDGE_LOOP ( 'NONE', ( #95, #68 ) ) ;
#12 = FACE_OUTER_BOUND ( 'NONE', #173, .T. ) ;
#13 = ORIENTED_EDGE ( 'NONE', *, *, #186, .T. ) ;
#14 = DIRECTION ( 'NONE',  ( -1.000000000000000000, -0.000000000000000000, -0.000000000000000000 ) ) ;
#15 = CC_DESIGN_APPROVAL ( #107, ( #194 ) ) ;
#16 = EDGE_LOOP ( 'NONE', ( #178, #168 ) ) ;
#17 = FACE_OUTER_BOUND ( 'NONE', #43, .T. ) ;
#18 = CARTESIAN_POINT ( 'NONE',  ( 1.500000000000000444, 6.349999999999999645, 0.000000000000000000 ) ) ;
#19 = VERTEX_POINT ( 'NONE', #59 ) ;
#20 = DIRECTION ( 'NONE',  ( 1.000000000000000000, 0.000000000000000000, 0.000000000000000000 ) ) ;
#21 = AXIS2_PLACEMENT_3D ( 'NONE', #52, #318, #155 ) ;
#22 = CARTESIAN_POINT ( 'NONE',  ( -2.999999999999999556, 0.000000000000000000, 6.349999999999999645 ) ) ;
#23 = EDGE_CURVE ( 'NONE', #72, #246, #148, .T. ) ;
#24 = COORDINATED_UNIVERSAL_TIME_OFFSET ( 8, 0, .AHEAD. ) ;
#25 = EDGE_CURVE ( 'NONE', #265, #274, #8, .T. ) ;
#26 = CARTESIAN_POINT ( 'NONE',  ( -1.614212418857619014, 7.776507174585692163E-16, -6.349999999999999645 ) ) ;
#27 = CALENDAR_DATE ( 2020, 23, 12 ) ;
#28 = CARTESIAN_POINT ( 'NONE',  ( -2.999999999999999556, 7.776507174585692163E-16, -6.349999999999999645 ) ) ;
#29 = CLOSED_SHELL ( 'NONE', ( #219, #183, #169, #123, #211, #317, #303, #109, #176, #266 ) ) ;
#30 = DIRECTION ( 'NONE',  ( 0.000000000000000000, 0.000000000000000000, 1.000000000000000000 ) ) ;
#31 = AXIS2_PLACEMENT_3D ( 'NONE', #88, #199, #152 ) ;
#32 = AXIS2_PLACEMENT_3D ( 'NONE', #42, #121, #33 ) ;
#33 = DIRECTION ( 'NONE',  ( 0.000000000000000000, 0.000000000000000000, 1.000000000000000000 ) ) ;
#34 = CC_DESIGN_PERSON_AND_ORGANIZATION_ASSIGNMENT ( #310, #285, ( #149 ) ) ;
#35 = CYLINDRICAL_SURFACE ( 'NONE', #218, 6.349999999999999645 ) ;
#36 = EDGE_LOOP ( 'NONE', ( #272, #41, #115, #65 ) ) ;
#37 = LINE ( 'NONE', #254, #62 ) ;
#38 = ORIENTED_EDGE ( 'NONE', *, *, #311, .T. ) ;
#39 = AXIS2_PLACEMENT_3D ( 'NONE', #67, #14, #222 ) ;
#40 = PLANE ( 'NONE',  #224 ) ;
#41 = ORIENTED_EDGE ( 'NONE', *, *, #306, .F. ) ;
#42 = CARTESIAN_POINT ( 'NONE',  ( 3.000000000000000888, 0.000000000000000000, 0.000000000000000000 ) ) ;
#43 = EDGE_LOOP ( 'NONE', ( #92, #38, #196, #304 ) ) ;
#44 = CARTESIAN_POINT ( 'NONE',  ( -1.500000000000000444, 6.349999999999999645, 0.000000000000000000 ) ) ;
#45 = EDGE_LOOP ( 'NONE', ( #138, #13, #229, #260 ) ) ;
#46 = AXIS2_PLACEMENT_3D ( 'NONE', #156, #5, #135 ) ;
#47 = PERSON_AND_ORGANIZATION ( #143, #238 ) ;
#48 = CC_DESIGN_DATE_AND_TIME_ASSIGNMENT ( #233, #2, ( #194 ) ) ;
#49 = COORDINATED_UNIVERSAL_TIME_OFFSET ( 8, 0, .AHEAD. ) ;
#50 = EDGE_CURVE ( 'NONE', #122, #86, #140, .T. ) ;
#51 = CIRCLE ( 'NONE', #334, 6.349999999999999645 ) ;
#52 = CARTESIAN_POINT ( 'NONE',  ( -3.000000000000000000, 6.349999999999999645, 0.000000000000000000 ) ) ;
#53 = PERSON_AND_ORGANIZATION_ROLE ( 'creator' ) ;
#54 = EDGE_CURVE ( 'NONE', #252, #296, #190, .T. ) ;
#55 = CARTESIAN_POINT ( 'NONE',  ( -1.614212418857619014, 0.000000000000000000, 0.000000000000000000 ) ) ;
#56 = PERSON_AND_ORGANIZATION ( #143, #238 ) ;
#57 = ORIENTED_EDGE ( 'NONE', *, *, #74, .F. ) ;
#58 = APPROVAL_PERSON_ORGANIZATION ( #216, #141, #282 ) ;
#59 = CARTESIAN_POINT ( 'NONE',  ( 3.000000000000000888, 0.000000000000000000, 6.349999999999999645 ) ) ;
#60 = EDGE_LOOP ( 'NONE', ( #120, #316 ) ) ;
#61 = DIRECTION ( 'NONE',  ( -1.000000000000000000, -0.000000000000000000, -0.000000000000000000 ) ) ;
#62 = VECTOR ( 'NONE', #220, 1000.000000000000000 ) ;
#63 = AXIS2_PLACEMENT_3D ( 'NONE', #103, #314, #82 ) ;
#64 = DIRECTION ( 'NONE',  ( 0.000000000000000000, 0.000000000000000000, -1.000000000000000000 ) ) ;
#65 = ORIENTED_EDGE ( 'NONE', *, *, #290, .T. ) ;
#66 = DIRECTION ( 'NONE',  ( 0.000000000000000000, 0.000000000000000000, 1.000000000000000000 ) ) ;
#67 = CARTESIAN_POINT ( 'NONE',  ( -2.999999999999999556, 0.000000000000000000, 0.000000000000000000 ) ) ;
#68 = ORIENTED_EDGE ( 'NONE', *, *, #257, .F. ) ;
#69 = LINE ( 'NONE', #269, #81 ) ;
#70 = AXIS2_PLACEMENT_3D ( 'NONE', #124, #206, #179 ) ;
#71 = DIRECTION ( 'NONE',  ( -1.000000000000000000, -0.000000000000000000, -0.000000000000000000 ) ) ;
#72 = VERTEX_POINT ( 'NONE', #85 ) ;
#73 = DIRECTION ( 'NONE',  ( 0.000000000000000000, 0.000000000000000000, -1.000000000000000000 ) ) ;
#74 = EDGE_CURVE ( 'NONE', #323, #217, #4, .T. ) ;
#75 = APPLICATION_PROTOCOL_DEFINITION ( 'international standard', 'config_control_design', 1994, #250 ) ;
#76 = CARTESIAN_POINT ( 'NONE',  ( -1.500000000000000444, 0.000000000000000000, 6.349999999999999645 ) ) ;
#77 = AXIS2_PLACEMENT_3D ( 'NONE', #175, #61, #322 ) ;
#78 = AXIS2_PLACEMENT_3D ( 'NONE', #44, #255, #105 ) ;
#79 = DATE_AND_TIME ( #27, #100 ) ;
#80 = APPLICATION_CONTEXT ( 'configuration controlled 3d designs of mechanical parts and assemblies' ) ;
#81 = VECTOR ( 'NONE', #297, 1000.000000000000000 ) ;
#82 = DIRECTION ( 'NONE',  ( 0.000000000000000000, 0.000000000000000000, 1.000000000000000000 ) ) ;
#83 =( LENGTH_UNIT ( ) NAMED_UNIT ( * ) SI_UNIT ( .MILLI., .METRE. ) );
#84 = EDGE_CURVE ( 'NONE', #86, #122, #108, .T. ) ;
#85 = CARTESIAN_POINT ( 'NONE',  ( 1.500000000000000888, 7.776507174585692163E-16, -6.349999999999999645 ) ) ;
#86 = VERTEX_POINT ( 'NONE', #117 ) ;
#87 = APPROVAL_PERSON_ORGANIZATION ( #181, #107, #289 ) ;
#88 = CARTESIAN_POINT ( 'NONE',  ( -1.614212418857619014, 0.000000000000000000, 0.000000000000000000 ) ) ;
#89 = ORIENTED_EDGE ( 'NONE', *, *, #279, .F. ) ;
#90 = FACE_OUTER_BOUND ( 'NONE', #312, .T. ) ;
#91 = CARTESIAN_POINT ( 'NONE',  ( -1.614212418857619014, 1.555301434917138433E-15, -12.69999999999999929 ) ) ;
#92 = ORIENTED_EDGE ( 'NONE', *, *, #197, .F. ) ;
#93 = DIRECTION ( 'NONE',  ( 1.000000000000000000, 0.000000000000000000, 0.000000000000000000 ) ) ;
#94 = CIRCLE ( 'NONE', #32, 6.349999999999999645 ) ;
#95 = ORIENTED_EDGE ( 'NONE', *, *, #54, .F. ) ;
#96 = CARTESIAN_POINT ( 'NONE',  ( -1.500000000000000444, 0.000000000000000000, 0.000000000000000000 ) ) ;
#97 = DIRECTION ( 'NONE',  ( 0.000000000000000000, 0.000000000000000000, 1.000000000000000000 ) ) ;
#98 = DESIGN_CONTEXT ( 'detailed design', #80, 'design' ) ;
#99 = PERSON_AND_ORGANIZATION_ROLE ( 'design_owner' ) ;
#100 = LOCAL_TIME ( 9, 23, 5.000000000000000000, #24 ) ;
#101 = PERSON_AND_ORGANIZATION_ROLE ( 'design_supplier' ) ;
#102 = PERSON_AND_ORGANIZATION ( #143, #238 ) ;
#103 = CARTESIAN_POINT ( 'NONE',  ( -1.614212418857619014, 0.000000000000000000, 0.000000000000000000 ) ) ;
#104 = APPROVAL_DATE_TIME ( #132, #154 ) ;
#105 = DIRECTION ( 'NONE',  ( 0.000000000000000000, 0.000000000000000000, -1.000000000000000000 ) ) ;
#106 = PERSON_AND_ORGANIZATION ( #143, #238 ) ;
#107 = APPROVAL ( #284, 'UNSPECIFIED' ) ;
#108 = CIRCLE ( 'NONE', #287, 12.69999999999999929 ) ;
#109 = ADVANCED_FACE ( 'NONE', ( #12 ), #195, .T. ) ;
#110 = ADVANCED_BREP_SHAPE_REPRESENTATION ( 'Q-QZWP-R4-12.7-1064-M', ( #6, #46 ), #295 ) ;
#111 = UNCERTAINTY_MEASURE_WITH_UNIT (LENGTH_MEASURE( 1.000000000000000082E-05 ), #83, 'distance_accuracy_value', 'NONE');
#112 = DIRECTION ( 'NONE',  ( 0.000000000000000000, 0.000000000000000000, 1.000000000000000000 ) ) ;
#113 = DIRECTION ( 'NONE',  ( -0.000000000000000000, 0.000000000000000000, 1.000000000000000000 ) ) ;
#114 = EDGE_CURVE ( 'NONE', #265, #252, #37, .T. ) ;
#115 = ORIENTED_EDGE ( 'NONE', *, *, #253, .T. ) ;
#116 = AXIS2_PLACEMENT_3D ( 'NONE', #205, #71, #153 ) ;
#117 = CARTESIAN_POINT ( 'NONE',  ( -3.000000000000000000, 0.000000000000000000, 12.69999999999999929 ) ) ;
#118 = ORIENTED_EDGE ( 'NONE', *, *, #197, .T. ) ;
#119 = DIRECTION ( 'NONE',  ( -1.000000000000000000, -0.000000000000000000, -0.000000000000000000 ) ) ;
#120 = ORIENTED_EDGE ( 'NONE', *, *, #84, .T. ) ;
#121 = DIRECTION ( 'NONE',  ( -1.000000000000000000, -0.000000000000000000, -0.000000000000000000 ) ) ;
#122 = VERTEX_POINT ( 'NONE', #167 ) ;
#123 = ADVANCED_FACE ( 'NONE', ( #165 ), #40, .F. ) ;
#124 = CARTESIAN_POINT ( 'NONE',  ( 1.500000000000000888, 0.000000000000000000, 0.000000000000000000 ) ) ;
#125 = VECTOR ( 'NONE', #131, 1000.000000000000000 ) ;
#126 = DIRECTION ( 'NONE',  ( -1.000000000000000000, -0.000000000000000000, -0.000000000000000000 ) ) ;
#127 = APPLICATION_PROTOCOL_DEFINITION ( 'international standard', 'config_control_design', 1994, #80 ) ;
#128 = PERSON_AND_ORGANIZATION ( #143, #238 ) ;
#129 = LOCAL_TIME ( 9, 23, 5.000000000000000000, #49 ) ;
#130 = COORDINATED_UNIVERSAL_TIME_OFFSET ( 8, 0, .AHEAD. ) ;
#131 = DIRECTION ( 'NONE',  ( -1.000000000000000000, -0.000000000000000000, -0.000000000000000000 ) ) ;
#132 = DATE_AND_TIME ( #185, #232 ) ;
#133 = FACE_OUTER_BOUND ( 'NONE', #60, .T. ) ;
#134 = EDGE_CURVE ( 'NONE', #323, #86, #69, .T. ) ;
#135 = DIRECTION ( 'NONE',  ( 1.000000000000000000, 0.000000000000000000, 0.000000000000000000 ) ) ;
#136 = LOCAL_TIME ( 9, 23, 5.000000000000000000, #130 ) ;
#137 = CARTESIAN_POINT ( 'NONE',  ( -1.614212418857619014, 0.000000000000000000, 6.349999999999999645 ) ) ;
#138 = ORIENTED_EDGE ( 'NONE', *, *, #74, .T. ) ;
#139 = ORIENTED_EDGE ( 'NONE', *, *, #257, .T. ) ;
#140 = CIRCLE ( 'NONE', #163, 12.69999999999999929 ) ;
#141 = APPROVAL ( #209, 'UNSPECIFIED' ) ;
#142 = CARTESIAN_POINT ( 'NONE',  ( -1.614212418857619014, 0.000000000000000000, 0.000000000000000000 ) ) ;
#143 = PERSON ( 'UNSPECIFIED', 'UNSPECIFIED', 'UNSPECIFIED', ('UNSPECIFIED'), ('UNSPECIFIED'), ('UNSPECIFIED') ) ;
#144 = DIRECTION ( 'NONE',  ( -1.000000000000000000, -0.000000000000000000, -0.000000000000000000 ) ) ;
#145 = ORIENTED_EDGE ( 'NONE', *, *, #306, .T. ) ;
#146 = DIRECTION ( 'NONE',  ( -1.000000000000000000, -0.000000000000000000, -0.000000000000000000 ) ) ;
#147 = CC_DESIGN_PERSON_AND_ORGANIZATION_ASSIGNMENT ( #128, #101, ( #208 ) ) ;
#148 = CIRCLE ( 'NONE', #77, 6.349999999999999645 ) ;
#149 = SECURITY_CLASSIFICATION ( '', '', #210 ) ;
#150 = CARTESIAN_POINT ( 'NONE',  ( -1.614212418857619014, 0.000000000000000000, 0.000000000000000000 ) ) ;
#151 = ORIENTED_EDGE ( 'NONE', *, *, #25, .F. ) ;
#152 = DIRECTION ( 'NONE',  ( 0.000000000000000000, 0.000000000000000000, 1.000000000000000000 ) ) ;
#153 = DIRECTION ( 'NONE',  ( 0.000000000000000000, 0.000000000000000000, 1.000000000000000000 ) ) ;
#154 = APPROVAL ( #212, 'UNSPECIFIED' ) ;
#155 = DIRECTION ( 'NONE',  ( 0.000000000000000000, 0.000000000000000000, -1.000000000000000000 ) ) ;
#156 = CARTESIAN_POINT ( 'NONE',  ( 0.000000000000000000, 0.000000000000000000, 0.000000000000000000 ) ) ;
#157 = PERSON_AND_ORGANIZATION_ROLE ( 'creator' ) ;
#158 = CALENDAR_DATE ( 2020, 23, 12 ) ;
#159 = CIRCLE ( 'NONE', #70, 6.349999999999999645 ) ;
#160 = DIRECTION ( 'NONE',  ( 0.000000000000000000, 0.000000000000000000, 1.000000000000000000 ) ) ;
#161 = DIRECTION ( 'NONE',  ( 0.000000000000000000, 0.000000000000000000, 1.000000000000000000 ) ) ;
#162 = DIRECTION ( 'NONE',  ( -1.000000000000000000, -0.000000000000000000, -0.000000000000000000 ) ) ;
#163 = AXIS2_PLACEMENT_3D ( 'NONE', #203, #146, #66 ) ;
#164 = AXIS2_PLACEMENT_3D ( 'NONE', #96, #20, #73 ) ;
#165 = FACE_OUTER_BOUND ( 'NONE', #16, .T. ) ;
#166 = VECTOR ( 'NONE', #300, 1000.000000000000000 ) ;
#167 = CARTESIAN_POINT ( 'NONE',  ( -3.000000000000000000, 1.555301434917138433E-15, -12.69999999999999929 ) ) ;
#168 = ORIENTED_EDGE ( 'NONE', *, *, #23, .F. ) ;
#169 = ADVANCED_FACE ( 'NONE', ( #17 ), #35, .F. ) ;
#170 = DIRECTION ( 'NONE',  ( 0.000000000000000000, 0.000000000000000000, 1.000000000000000000 ) ) ;
#171 = EDGE_LOOP ( 'NONE', ( #57, #240 ) ) ;
#172 = CARTESIAN_POINT ( 'NONE',  ( 3.000000000000000000, 0.000000000000000000, 0.000000000000000000 ) ) ;
#173 = EDGE_LOOP ( 'NONE', ( #221, #321, #204, #278 ) ) ;
#174 = CC_DESIGN_APPROVAL ( #154, ( #149 ) ) ;
#175 = CARTESIAN_POINT ( 'NONE',  ( 1.500000000000000888, 0.000000000000000000, 0.000000000000000000 ) ) ;
#176 = ADVANCED_FACE ( 'NONE', ( #271, #247 ), #251, .F. ) ;
#177 = CYLINDRICAL_SURFACE ( 'NONE', #249, 12.69999999999999929 ) ;
#178 = ORIENTED_EDGE ( 'NONE', *, *, #290, .F. ) ;
#179 = DIRECTION ( 'NONE',  ( 0.000000000000000000, 0.000000000000000000, 1.000000000000000000 ) ) ;
#180 = LOCAL_TIME ( 9, 23, 5.000000000000000000, #262 ) ;
#181 = PERSON_AND_ORGANIZATION ( #143, #238 ) ;
#182 = DIRECTION ( 'NONE',  ( -1.000000000000000000, -0.000000000000000000, -0.000000000000000000 ) ) ;
#183 = ADVANCED_FACE ( 'NONE', ( #90 ), #273, .F. ) ;
#184 = DATE_AND_TIME ( #288, #180 ) ;
#185 = CALENDAR_DATE ( 2020, 23, 12 ) ;
#186 = EDGE_CURVE ( 'NONE', #217, #122, #328, .T. ) ;
#187 = CARTESIAN_POINT ( 'NONE',  ( 3.000000000000000000, 0.000000000000000000, 12.69999999999999929 ) ) ;
#188 = FACE_OUTER_BOUND ( 'NONE', #45, .T. ) ;
#189 =( NAMED_UNIT ( * ) PLANE_ANGLE_UNIT ( ) SI_UNIT ( $, .RADIAN. ) );
#190 = CIRCLE ( 'NONE', #39, 6.349999999999999645 ) ;
#191 = APPROVAL_PERSON_ORGANIZATION ( #102, #154, #313 ) ;
#192 = SHAPE_DEFINITION_REPRESENTATION ( #9, #110 ) ;
#193 = PRODUCT ( 'Q-QZWP-R4-12.7-1064-M', 'Q-QZWP-R4-12.7-1064-M', '', ( #263 ) ) ;
#194 = PRODUCT_DEFINITION ( 'UNKNOWN', '', #208, #98 ) ;
#195 = CYLINDRICAL_SURFACE ( 'NONE', #31, 12.69999999999999929 ) ;
#196 = ORIENTED_EDGE ( 'NONE', *, *, #23, .T. ) ;
#197 = EDGE_CURVE ( 'NONE', #292, #19, #94, .T. ) ;
#198 = CIRCLE ( 'NONE', #116, 12.69999999999999929 ) ;
#199 = DIRECTION ( 'NONE',  ( -1.000000000000000000, -0.000000000000000000, -0.000000000000000000 ) ) ;
#200 = ORIENTED_EDGE ( 'NONE', *, *, #54, .T. ) ;
#201 = CARTESIAN_POINT ( 'NONE',  ( -1.614212418857619014, 0.000000000000000000, 0.000000000000000000 ) ) ;
#202 = ORIENTED_EDGE ( 'NONE', *, *, #279, .T. ) ;
#203 = CARTESIAN_POINT ( 'NONE',  ( -3.000000000000000000, 0.000000000000000000, 0.000000000000000000 ) ) ;
#204 = ORIENTED_EDGE ( 'NONE', *, *, #134, .T. ) ;
#205 = CARTESIAN_POINT ( 'NONE',  ( 3.000000000000000000, 0.000000000000000000, 0.000000000000000000 ) ) ;
#206 = DIRECTION ( 'NONE',  ( -1.000000000000000000, -0.000000000000000000, -0.000000000000000000 ) ) ;
#207 = CARTESIAN_POINT ( 'NONE',  ( 3.000000000000000888, 0.000000000000000000, 0.000000000000000000 ) ) ;
#208 = PRODUCT_DEFINITION_FORMATION_WITH_SPECIFIED_SOURCE ( 'ANY', '', #193, .NOT_KNOWN. ) ;
#209 = APPROVAL_STATUS ( 'not_yet_approved' ) ;
#210 = SECURITY_CLASSIFICATION_LEVEL ( 'unclassified' ) ;
#211 = ADVANCED_FACE ( 'NONE', ( #228 ), #329, .F. ) ;
#212 = APPROVAL_STATUS ( 'not_yet_approved' ) ;
#213 = DIRECTION ( 'NONE',  ( -1.000000000000000000, -0.000000000000000000, -0.000000000000000000 ) ) ;
#214 = CC_DESIGN_PERSON_AND_ORGANIZATION_ASSIGNMENT ( #56, #53, ( #194 ) ) ;
#215 = CARTESIAN_POINT ( 'NONE',  ( -1.500000000000000444, 7.776507174585692163E-16, -6.349999999999999645 ) ) ;
#216 = PERSON_AND_ORGANIZATION ( #143, #238 ) ;
#217 = VERTEX_POINT ( 'NONE', #283 ) ;
#218 = AXIS2_PLACEMENT_3D ( 'NONE', #150, #144, #170 ) ;
#219 = ADVANCED_FACE ( 'NONE', ( #188 ), #177, .T. ) ;
#220 = DIRECTION ( 'NONE',  ( -1.000000000000000000, -0.000000000000000000, -0.000000000000000000 ) ) ;
#221 = ORIENTED_EDGE ( 'NONE', *, *, #186, .F. ) ;
#222 = DIRECTION ( 'NONE',  ( 0.000000000000000000, 0.000000000000000000, 1.000000000000000000 ) ) ;
#223 = ORIENTED_EDGE ( 'NONE', *, *, #264, .F. ) ;
#224 = AXIS2_PLACEMENT_3D ( 'NONE', #18, #245, #113 ) ;
#225 = CARTESIAN_POINT ( 'NONE',  ( 3.000000000000000000, 12.69999999999999929, 0.000000000000000000 ) ) ;
#226 = DIRECTION ( 'NONE',  ( 0.000000000000000000, 0.000000000000000000, 1.000000000000000000 ) ) ;
#227 = ORIENTED_EDGE ( 'NONE', *, *, #25, .T. ) ;
#228 = FACE_OUTER_BOUND ( 'NONE', #36, .T. ) ;
#229 = ORIENTED_EDGE ( 'NONE', *, *, #84, .F. ) ;
#230 = CARTESIAN_POINT ( 'NONE',  ( -2.999999999999999556, 0.000000000000000000, 0.000000000000000000 ) ) ;
#231 = CARTESIAN_POINT ( 'NONE',  ( 3.000000000000000888, 7.776507174585692163E-16, -6.349999999999999645 ) ) ;
#232 = LOCAL_TIME ( 9, 23, 5.000000000000000000, #236 ) ;
#233 = DATE_AND_TIME ( #237, #136 ) ;
#234 = DATE_AND_TIME ( #158, #129 ) ;
#235 = FACE_OUTER_BOUND ( 'NONE', #270, .T. ) ;
#236 = COORDINATED_UNIVERSAL_TIME_OFFSET ( 8, 0, .AHEAD. ) ;
#237 = CALENDAR_DATE ( 2020, 23, 12 ) ;
#238 = ORGANIZATION ( 'UNSPECIFIED', 'UNSPECIFIED', '' ) ;
#239 = DIRECTION ( 'NONE',  ( -1.000000000000000000, -0.000000000000000000, -0.000000000000000000 ) ) ;
#240 = ORIENTED_EDGE ( 'NONE', *, *, #242, .F. ) ;
#241 = CC_DESIGN_SECURITY_CLASSIFICATION ( #149, ( #208 ) ) ;
#242 = EDGE_CURVE ( 'NONE', #217, #323, #198, .T. ) ;
#243 = DIRECTION ( 'NONE',  ( 0.000000000000000000, 0.000000000000000000, 1.000000000000000000 ) ) ;
#244 = EDGE_LOOP ( 'NONE', ( #151, #89 ) ) ;
#245 = DIRECTION ( 'NONE',  ( -1.000000000000000000, 0.000000000000000000, -0.000000000000000000 ) ) ;
#246 = VERTEX_POINT ( 'NONE', #3 ) ;
#247 = FACE_BOUND ( 'NONE', #326, .T. ) ;
#248 = ORIENTED_EDGE ( 'NONE', *, *, #114, .F. ) ;
#249 = AXIS2_PLACEMENT_3D ( 'NONE', #55, #162, #30 ) ;
#250 = APPLICATION_CONTEXT ( 'configuration controlled 3d designs of mechanical parts and assemblies' ) ;
#251 = PLANE ( 'NONE',  #301 ) ;
#252 = VERTEX_POINT ( 'NONE', #22 ) ;
#253 = EDGE_CURVE ( 'NONE', #19, #246, #307, .T. ) ;
#254 = CARTESIAN_POINT ( 'NONE',  ( -1.614212418857619014, 0.000000000000000000, 6.349999999999999645 ) ) ;
#255 = DIRECTION ( 'NONE',  ( 1.000000000000000000, 0.000000000000000000, 0.000000000000000000 ) ) ;
#256 = CIRCLE ( 'NONE', #164, 6.349999999999999645 ) ;
#257 = EDGE_CURVE ( 'NONE', #296, #252, #51, .T. ) ;
#258 = CC_DESIGN_PERSON_AND_ORGANIZATION_ASSIGNMENT ( #106, #99, ( #193 ) ) ;
#259 = FACE_OUTER_BOUND ( 'NONE', #244, .T. ) ;
#260 = ORIENTED_EDGE ( 'NONE', *, *, #134, .F. ) ;
#261 = LINE ( 'NONE', #26, #125 ) ;
#262 = COORDINATED_UNIVERSAL_TIME_OFFSET ( 8, 0, .AHEAD. ) ;
#263 = MECHANICAL_CONTEXT ( 'NONE', #250, 'mechanical' ) ;
#264 = EDGE_CURVE ( 'NONE', #274, #296, #277, .T. ) ;
#265 = VERTEX_POINT ( 'NONE', #76 ) ;
#266 = ADVANCED_FACE ( 'NONE', ( #259 ), #305, .F. ) ;
#267 = DIRECTION ( 'NONE',  ( -0.000000000000000000, 0.000000000000000000, 1.000000000000000000 ) ) ;
#268 = AXIS2_PLACEMENT_3D ( 'NONE', #201, #119, #226 ) ;
#269 = CARTESIAN_POINT ( 'NONE',  ( -1.614212418857619014, 0.000000000000000000, 12.69999999999999929 ) ) ;
#270 = EDGE_LOOP ( 'NONE', ( #223, #202, #298, #200 ) ) ;
#271 = FACE_OUTER_BOUND ( 'NONE', #171, .T. ) ;
#272 = ORIENTED_EDGE ( 'NONE', *, *, #311, .F. ) ;
#273 = CYLINDRICAL_SURFACE ( 'NONE', #268, 6.349999999999999645 ) ;
#274 = VERTEX_POINT ( 'NONE', #215 ) ;
#275 = CIRCLE ( 'NONE', #281, 6.349999999999999645 ) ;
#276 = CARTESIAN_POINT ( 'NONE',  ( -3.000000000000000000, 0.000000000000000000, 0.000000000000000000 ) ) ;
#277 = LINE ( 'NONE', #330, #325 ) ;
#278 = ORIENTED_EDGE ( 'NONE', *, *, #50, .F. ) ;
#279 = EDGE_CURVE ( 'NONE', #274, #265, #256, .T. ) ;
#280 = PLANE ( 'NONE',  #21 ) ;
#281 = AXIS2_PLACEMENT_3D ( 'NONE', #207, #182, #160 ) ;
#282 = APPROVAL_ROLE ( '' ) ;
#283 = CARTESIAN_POINT ( 'NONE',  ( 3.000000000000000000, 1.555301434917138433E-15, -12.69999999999999929 ) ) ;
#284 = APPROVAL_STATUS ( 'not_yet_approved' ) ;
#285 = PERSON_AND_ORGANIZATION_ROLE ( 'classification_officer' ) ;
#286 = AXIS2_PLACEMENT_3D ( 'NONE', #10, #93, #64 ) ;
#287 = AXIS2_PLACEMENT_3D ( 'NONE', #276, #293, #112 ) ;
#288 = CALENDAR_DATE ( 2020, 23, 12 ) ;
#289 = APPROVAL_ROLE ( '' ) ;
#290 = EDGE_CURVE ( 'NONE', #246, #72, #159, .T. ) ;
#291 = CC_DESIGN_APPROVAL ( #141, ( #208 ) ) ;
#292 = VERTEX_POINT ( 'NONE', #231 ) ;
#293 = DIRECTION ( 'NONE',  ( -1.000000000000000000, -0.000000000000000000, -0.000000000000000000 ) ) ;
#294 = CC_DESIGN_DATE_AND_TIME_ASSIGNMENT ( #234, #335, ( #149 ) ) ;
#295 =( GEOMETRIC_REPRESENTATION_CONTEXT ( 3 ) GLOBAL_UNCERTAINTY_ASSIGNED_CONTEXT ( ( #111 ) ) GLOBAL_UNIT_ASSIGNED_CONTEXT ( ( #83, #189, #319 ) ) REPRESENTATION_CONTEXT ( 'NONE', 'WORKASPACE' ) );
#296 = VERTEX_POINT ( 'NONE', #28 ) ;
#297 = DIRECTION ( 'NONE',  ( -1.000000000000000000, -0.000000000000000000, -0.000000000000000000 ) ) ;
#298 = ORIENTED_EDGE ( 'NONE', *, *, #114, .T. ) ;
#299 = PRODUCT_RELATED_PRODUCT_CATEGORY ( 'detail', '', ( #193 ) ) ;
#300 = DIRECTION ( 'NONE',  ( -1.000000000000000000, -0.000000000000000000, -0.000000000000000000 ) ) ;
#301 = AXIS2_PLACEMENT_3D ( 'NONE', #225, #327, #267 ) ;
#302 = DIRECTION ( 'NONE',  ( -1.000000000000000000, -0.000000000000000000, -0.000000000000000000 ) ) ;
#303 = ADVANCED_FACE ( 'NONE', ( #331, #133 ), #280, .F. ) ;
#304 = ORIENTED_EDGE ( 'NONE', *, *, #253, .F. ) ;
#305 = PLANE ( 'NONE',  #78 ) ;
#306 = EDGE_CURVE ( 'NONE', #19, #292, #275, .T. ) ;
#307 = LINE ( 'NONE', #137, #308 ) ;
#308 = VECTOR ( 'NONE', #302, 1000.000000000000000 ) ;
#309 = APPROVAL_DATE_TIME ( #79, #141 ) ;
#310 = PERSON_AND_ORGANIZATION ( #143, #238 ) ;
#311 = EDGE_CURVE ( 'NONE', #292, #72, #261, .T. ) ;
#312 = EDGE_LOOP ( 'NONE', ( #227, #332, #139, #248 ) ) ;
#313 = APPROVAL_ROLE ( '' ) ;
#314 = DIRECTION ( 'NONE',  ( -1.000000000000000000, -0.000000000000000000, -0.000000000000000000 ) ) ;
#315 = AXIS2_PLACEMENT_3D ( 'NONE', #172, #324, #243 ) ;
#316 = ORIENTED_EDGE ( 'NONE', *, *, #50, .T. ) ;
#317 = ADVANCED_FACE ( 'NONE', ( #235 ), #1, .F. ) ;
#318 = DIRECTION ( 'NONE',  ( 1.000000000000000000, 0.000000000000000000, 0.000000000000000000 ) ) ;
#319 =( NAMED_UNIT ( * ) SI_UNIT ( $, .STERADIAN. ) SOLID_ANGLE_UNIT ( ) );
#320 = AXIS2_PLACEMENT_3D ( 'NONE', #142, #239, #161 ) ;
#321 = ORIENTED_EDGE ( 'NONE', *, *, #242, .T. ) ;
#322 = DIRECTION ( 'NONE',  ( 0.000000000000000000, 0.000000000000000000, 1.000000000000000000 ) ) ;
#323 = VERTEX_POINT ( 'NONE', #187 ) ;
#324 = DIRECTION ( 'NONE',  ( -1.000000000000000000, -0.000000000000000000, -0.000000000000000000 ) ) ;
#325 = VECTOR ( 'NONE', #213, 1000.000000000000000 ) ;
#326 = EDGE_LOOP ( 'NONE', ( #145, #118 ) ) ;
#327 = DIRECTION ( 'NONE',  ( -1.000000000000000000, 0.000000000000000000, -0.000000000000000000 ) ) ;
#328 = LINE ( 'NONE', #91, #166 ) ;
#329 = CYLINDRICAL_SURFACE ( 'NONE', #320, 6.349999999999999645 ) ;
#330 = CARTESIAN_POINT ( 'NONE',  ( -1.614212418857619014, 7.776507174585692163E-16, -6.349999999999999645 ) ) ;
#331 = FACE_BOUND ( 'NONE', #11, .T. ) ;
#332 = ORIENTED_EDGE ( 'NONE', *, *, #264, .T. ) ;
#333 = APPROVAL_DATE_TIME ( #184, #107 ) ;
#334 = AXIS2_PLACEMENT_3D ( 'NONE', #230, #126, #97 ) ;
#335 = DATE_TIME_ROLE ( 'classification_date' ) ;
ENDSEC;
END-ISO-10303-21;
